Loading...

Tuesday, July 20, 2010

guitar chord

C 032010
F 033211
G 320033

Sari umra hum mar-mar ke jee liye…
Ek pal to ab hume jeene do… jeene do…(Slide 7\3 on 5th string)

| C F | C F | C F | C G |
| C F | C F | C F | C G | (WITH BEATS)


The F & G chords above should be struck only at the last stroke.
Strumming 1
(C)Sari umra (G)hum, mar-(C)mar ke jee li(G)ye
Ek (C)pal to ab hu(G)me jee(F)ne do, jeene (G)do…
(C)Sari umra (G)hum, mar-(C)mar ke jee li(G)ye
Ek (C)pal to ab hu(G)me jee(F)ne do, jeene (G)do…

Strumming 1
(C)Na na na-na(G)… na-na (C)na na na-na(G)
(C)Na na na-na(G)… na na (F)na na na na-(G)naaa..

Strumming 2
(C)Give me some (G)sunshine
(C)Give me some (G)rain
(C)Give me (G)another chance
i wanna (F)grow up once a(G)gain… x2

Strumming 1
(C) …
(F)Kandho ko (C)kitabo ke bojh ne jhukaya(F)
Rishwat(C) dena to khud papa ne sikhaya(F)
(C)99% marks (F)laoge to (G)ghadi, (C)warna chadi (F)
(C)likh-likh kar padha (F)hateli par
aplha, (C)beta, gamma ka(F) chala
(C)conc. H2SO4(F) ne pura, (C)pura bach(F)pan jala dala(G)

Strumming 1
(C)bachpan to ga(G)ya, ja(C)wani bhi ga(G)yi
ek (C)pal to ab hu(G)me jee(F)ne do jeene (G)do

Chorus
(C)bachpan to ga(G)ya, ja(C)wani bhi ga(G)yi
ek (C)pal to ab hu(G)me jee(F)ne do jeene (G)do oooooo

Melody (Piano)

E ----------------------------------------|
B -13-13-10-11---11-10-13-13-10-11--------|
G ----------------------------------------|
D ----------------------------------------|
A ----------------------------------------|
E ----------------------------------------|

E ----------------------------------------|
B --11h13-13-10-11---11-10-13-12-13-13----|
G -------------------------------------14-|
D ----------------------------------------|
A ----------------------------------------|
E ----------------------------------------|

(C)Sari umra (G)hum, mar-(C)mar ke jee li(G)ye
Ek (C)pal to ab hu(G)me jee(F)ne do, jeene (G)do…

(C)Na na na-na(G)… na-na (C)na na na-na(G)
(C)Na na na-na(G)… na na (Fbar)na na na na-(Gbar)naaa..

(C)Give me some (G)sunshine
(C)Give me some (G)rain
(C)Give me (G)another chance
i wanna (F)grow up once a(G)gain… x2

{No strumming}
Na na na-na… na-na na na na-na
Na na na-na… na na na na na na-naaa..

{Strumming}
(C)Na na na-na(G)… na-na (C)na na na-na(G)
(C)Na na na-na(G)… na na (F)na na na na-(G)naaa..


Song: Kuch is tarhan
Album: Doorie
Single: Atif Aslam
Tabbed by Faiq

************************************************************

Chords:
Am X02210 
Bb X13331
Dm XX0231
C  x32010

Intro
e|----12-13-15-13-13------------------------------------|
b|-13----------------14b15r14-12-14-12-12-10----------------------| 
g|--------------------------------------------|
d|--------------------------------------------|
a|--------------------------------------------|
e|--------------------------------------------|  

e|-------------|-------------------------------|
b|-6-----------|-------------------------------|
g|-----5-------|---------5---------------------|
d|---7---7-5-7-|--7-8--7---8-7-8---------------|
a|-------------|-------------------------------|
e|-------------|-------------------------------|3x

Riff:A
e|--------1--------3-----------3---------1---------|
b|------3----------1-----------1-------3-----------|
g|----2----------2-----------2-------2-------------|
d|--0----------2-----------2-------0---------------|
a|-----------0-----------0-------------------------|
e|-------------------------------------------------|

************************************************************

Riff:A
Kuch is tarhan .. teri palkain...meri palkoon sey mila dey
ansoo terey saree...meri palkoon pe saja dey (2x)

Kuch is tarhan .. teri palkain...meri palkoon sey mila dey

[Piano solo] Then bottom solo on guitar

e|--------------------------------------------|
b|-11-11-11p10--8--6-6---------------------------------|
g|---------------------9-9s7---7s5-5s3-3-2-2----------------|
d|--------------------------------------------|
a|--------------------------------------------|
e|--------------------------------------------|  

************************************************************

Riff:A
Kuch is tarhan .. teri palkain...meri palkoon sey mila dey
ansoo terey saree...meri palkoon pe saja dey


[SOLO]
e|---------------------------------------13-13-13-13-13-10-12-10-10----------------------------|
b|-13-13-13-13-10------------------------------------------------------11-10-------------------|
g|-----------------14-14p10-12-10-12s14---------------------------------------12-10--9-9-7-5-7-|
d|-----------------------------------------------------------------------------------------------------|
a|-----------------------------------------------------------------------------------------------------|
e|-----------------------------------------------------------------------------------------------------|  

************************************************************
-------Dm----------Am-------Bb---------C----
tu har ghari...har waqt..merey sath raha hai

--------Dm----------Am---------Bb---------C----
han yeh jisam kabhi dooor...kabhi pass raha hai

--------Dm------------Am----------Bb-------------C----
joh bhi gham hain yeh terey .. unhain tu mera pata dai.........


Riff:A
Kuch is tarhan .. teri palkain...meri palkoon sey mila dey
ansoo terey saree...meri palkoon pe saja dey

************************************************************

----------Dm--------Am----------Bb--------C----
mujhko tu terey chehrey pe..yeh gham nahi jajta
---Dm------Am---------Bb--------------------C----
jaaiz nahi laghta..mujhey gham sey yeh tera rishta
----Dm-----Am-------Bb----------------C----
sun meri guzarish..isey chehray sey hata dey

Riff:A
Kuch is tarhan .. teri palkain...meri palkoon sey mila dey
ansoo terey saree...meri palkoon pe saja dey


e|--------------------------------------------|
b|s13-11-10-8--(Piano Ending)-----------------|
g|--------------------------------------------|
d|--------------------------------------------|
a|--------------------------------------------|
e|--------------------------------------------|

1 comment: